maandag 9 februari 2015

De kluif van Bobby!


Daarom mag je nooit een slapende hond wakker maken, onze Lefla is er met zijn been vandoor! En een been zal hij wel hebben om op te knagen vandaag hihi, het is namelijk zijn verjaardag joepie!

29 opmerkingen:

pieterbie zei

Happy B-day, Lefla.
Smakelijke foto :-)
Hopelijk krijgt hij ook nog de taart.

Marjolijn. zei

Het leven kent zo zijn goede momenten
En dit is nou precies zo'n dag
Waarvan jullie extra mogen genieten.

Van harte proficiat voor en met de jarige job, maak er een mooi feestje van samen.
Met een kluif of met een lekker taartje het is allemaal goed.

Fijne dag vandaag...!!

Lutje zei

ne happy birthday voor je man, ik twijfel er niet aan dat je er een hele leuke onvergeetlijke dag van gaat maken, dus begin al maar vast te genieten

Ferry - Jacqueline zei

Gefeliciteerd met je manlief. Jarige job!! Kluif gaat vast erin.Pffff...Lekker samen genieten.Ik wens jullie veel plezier met je verjaardag.
Fijne dag.

Marlou zei

Lieve Gerda en lieve Lefla,

van harte gefeliciteerd!!
Ik wens je een fijn en gezond en smaekljk levensjaar toe...

Dikke pakkerd van Marlou

.

Kay L. zei

Waar haal je die bewerking:
got in himmel haha

Lefla
jaartjes sparen
weer eentje bij
vandaag verjaren, nog piepjong
succesvol!

eppie beurtdaaj toe joe
eppie beurtdaaj toe joe
dear lefla, eppie , hippie, lovely, birthday toe joe-hoe ♥

John zei

Goedemorgen Gerda en Lefla,

Van harte gefeliciteerd! En dat het een hele mooie dag mag worden.
E---------------------------------------¬-------------
B---------------------------------------¬-------------
G-------------------0-------------------¬-----2--0--
D----0--0--2--0------4-----0--0--2--0---¬-------
A---------------------------------------¬-------------
E---------------------------------------¬-------------

E---------------------------------------¬---------------------
B------------3--0-------------------1--1¬--0---------------
G-------------------0-------------------¬---------0--2--0--
D----0--0--------------4--2-------------¬------------------
A---------------------------------------¬---------------------
E---------------------------------------¬---------------------

Chords:
G / / / D / / / D / / / G / / /
G / / / C / / / G / / D G / / /

Rock:
E---------------------------------------¬------------------------
B-----------------------7b--7-----------¬-----------/10--8---
G----7--7--7h9--7-------------7--7--7h9-¬-7--------------
D---------------------------------------¬------------------------
A---------------------------------------¬------------------------
E---------------------------------------¬------------------------

E-------------/10--7--------------------¬-7h8--8--7-----------------
B------------------------b7--7--\5------¬---------------8---b8--8---
G----7--7-------------------------------¬-------------------------------
D---------------------------------------¬--------------------------------
A---------------------------------------¬--------------------------------
E---------------------------------------¬--------------------------------

Chords and Melody:
E--------------------3------------------¬---------------
B----3--3--5--3---3------7--------------¬-----10---
G----4--------------4-----7-----7--7--9-¬-7--7-----
D----5--------------5-----7-----7-------¬------7-----
A---------------------------------------¬----------------
E---------------------------------------¬----------------

E-------------------10--7---------------¬8--8--7-----------------
B----8--------------8-------8---7--5---5¬-----8---8---10---8--
G----7----7--7----7------------5-------5¬-----7--------7----7--
D----9----9--------9------------5-------¬5-----9--------7----9--
A---------------------------------------¬-----------------------------
E---------------------------------------¬-----------------------------
Hopelijk komt het goed over. Een verjaardag liedje.

Maak er een mooie dag van hè! :)

Haba zei

Hartelijk gefeliciteerd met Lefla, maar had je nu niet iets anders in zijn mond kunnen shoppen? Die arme man en dat dan op zijn verjaardag. Je hebt het wel heel knap gemaakt, niet van echt te onderscheiden.
Ik wens jullie een fijne maandag toe en voor je lief een hoop lekkere taart.

christiene zei

Lefla gefeliciteerd met je verjaardag!
Ha Gerda je hebt een mooie foto gemaakt van de jarige job
de taart is zeker op......
Wens jullie samen een heel feestelijke dag...
lieve groet Christiene.

Boerin zonder Naam zei

Een gelukkige verjaardag voor Leflamand!!!!!!
Ik ben zo benieuwd naar de foto's van de kadootjes.... Zou er een aanvulling op de groene kabouter bij zitten??

A van de Aa zei

Proficiat de jarige job.
Nog vele jaartjes in goede gezondheid en met veel humor ;-)

En ik wist het wel dat er een paar botjes uit dat dino-museum vermist werden ..... hoop dt Bobby het niet terug komt halen ;-)

Chantal zei

maar veel vlees zit er niet meer op het bot, hij heeft dus eerder bot gevangen

Hilde zei

Ooooooh, was de taart al op! Gelukkig kon je hem met een kluitje, eeeeuuuhhh kluifje, in het riet sturen!
*wink, big smile*
Maak er maar een fijn feestje van!

Albert y Mara fotoblog zei

Kort maar krachtig FELICIDADES met Lefla. Maak er samen een mooie dag van. Grtz Mara

Lies zei

Drie dikke smakkerds, Lefla !
En ook voor jou, Gerda !
Lie(f)s.

willy duvel zei

Oei Die slaapt met zijn ogen open !! Mooi Groetjes

willy zei

mijn hartelijke gelukwensen...

en wat een mooi plaatje Gerda...

maak er een feestelijke dag van..

Joris Reyniers zei

Hoera, er is er eentje jarig vandaag. Na al die taarten van de afgelopen dagen, is het nu tijd voor een lekker stukje vlees, alhoewel, zo te zien moet de jarige vrede nemen met enkel het bot. Maak er alvast een fijne dag van samen en hopelijk nog heel wat verjaardagen in de toekomst. Misschien komt niet het verwachte bericht, maar ben zeker dat aan jullie toch tenminste wordt gedacht vandaag. De eerste stap is vaak de moeilijkste en vroeg of laat komt die er wel.

Mieke zei

Happy Birthday voor de jarige. Er zijn nogal wat bloggers of naasten jarig in de maand februari. Vruchtbare maand. Dikke proficiat.

Terrence Weijnschenk zei

Wat een heerlijke maaltijd heb je hem bereid, lieve Gerda! ;-)

francky spruytte zei

Een hip hip hoera voor Lefla !

FRANK103 zei

Gefeliciteerd en ook smakelijk eten, hoewel een knoflook of satesausje naar mijn mening niet mag ontbreken bij zo'n maaltijd!

Mirjam Kakelbont zei

Amai, geef de jarige eens een stukje taart ;-) Dat heeft-ie wel verdiend nu hij weer een heel jaar ouder geworden is.
Gefelicistaart!
Groetjes Kakel

klaproos zei

Van harte gefeliciteerd da's wel een heel mooie dag guido,
mijn zus is vandaag ook jarig net als vorig jaar:-)
wat een prachtige dag,

heb je het fijn gehad?

es zei

Ik had het kunnen weten!
Van harte gefeliciteerd -beiden- met de verjaardag van Lefla.

Met zo'n kluif in z'n mond zal het blaffen hem wel vergaan ;-]

Renesmurf zei

Van harte gefeliciteerd en eet smakelijk!

curieuzeneuzemosterdpot zei

HIEPERDEPIEPPPPPP voor de jarige!

laat dat been maar rap liggen, want het wordt heerlijk smullen van de verjaardagstaart! :-))

Lutje zei

na dit feestje ben jij natuurlijk niet zo vlug als mij, je ligt waarschijnlijk nog te slapen, maar ik wens je alvast een heel fijn dagje

Wim zei

Beter laat dan nooit "Gelukkige Verjaardag Lefla" :-)